Exile Vilify by The National


	
Intro/Verse-Piano Interpretation (Acoustic Guitar)
    Em               G                C               Am
E-----------------------------------------------------------------------|
B-------------0-------------------------------0-------------------------|
G-----------------------2-0------------(0)--------------2-0-------------|
D----(2)----2---2------0----2-0-2------2----2---2------2----2-0-2-------|
A----2----------------x---------------3---------------0-----------------|
E---0----------------3-------(3)----------------------------------------|
 Slow strumm      make sure the e-string keeps ringing during each chords!

--------------------------------------------------------------------------------
UPDATE 22/05/2011
Addition to verse-pattern  using bar-chords, all credit to ambient203!
Also "emptinesses again" is changed into "empty answers again", thanks again to ambient203.

 v    v    v  v     v   v    v   v  v
e|--x--x--7-x--5-3-3--x--x--x--x-7-x--5-----------x--|
B|--8--x--8-x--3-3-3--5--3--5--5-5-x--5-8-8-5--8--8--|
G|--9--9--9-x--4-4-4--4--4--5--5-5-x--5-5-5-5--5--9--|
D|--9--9--9-x--x-x-x--5--5--5--5-5-x--7-7-7-7--7--9--|
A|--7--7--7----5---5--5--5--3---------7-7-7-7--7--7--|
E|-------------3------3---------------5---5----------|




Em    G     C     Am   (piano riff on the bottom)
Em    G     C     Am


 Em    G     C     Am            Em      G     C     Am
Exile.             It takes your   mind...    again. 
 Em    G     C     Am            Em      G     C     Am
Exile.             It takes your   mind...     again. 


        Em  C      G     D/F#
You got su--cker's luck
         Em  C   G    D/F#
Have you gi--ven up? 


        Am          F       C       G
Does it feel like a trial? 
        Am           F             C           G        G
Does it trouble your mind the way, you trouble mine. 


Em    G     C     Am
Em    G     C     Am


 Em    G     C     Am            Em      G     C     Am
Exile.             It takes your   mind...    again. 
 Em    G     C     Am            Em      G     C     Am
Exile.             It takes your   mind...     again. 


        Em    C  G     D/F#
Oh, you meant so much
         Em  C   G     D/F# 
Have you gi--ven up? 


        Am          F       C       G
Does it feel like a trial? 
        Am           F             C           G        G
Does it trouble your mind the way, you trouble mine. 
        Am          F       C       G
Does it feel like a trial? 
            Am           F                 C          G        G  
Now, you're thinkin' too fast you're like, marbles on glass. 


Dm    Am     C     Em         Dm      Am        C       G   
        Vilify.                       Don't even  try. 
Dm    Am     C     Em         Dm      Am        C       G   G
        Vilify.                       Don't even  try. 


Em    G     C     Am
Em    G     C     Am


        Em  C      G     D/F#
You got su--cker's luck
         Em  C   G    D/F#
Have you gi--ven up? 


        Am          F       C       G
Does it feel like a trial? 
        Am           F             C           G      
Does it trouble your mind the way, you trouble mine. 
        Am          F       C       G
Does it feel like a trial? 
        Am               F         C       G     G
Did you fall far for the same emptinesses again? 


Dm    Am     C     Em         Dm      Am        C       G   
        Vilify.                       Don't even  try. 
Dm    Am     C     Em         Dm      Am        C       G   G
        Vilify.                       Don't even  try. 

Dm    Am     C     Em         Dm      Am        C       G   
        Vilify.                       Don't even  try. 
Dm    Am     C     Em         Dm      Am        C       G   G   G   G
        Vilify.                       Don't even  try. 
Em